Označite pesmu Preuzmite .pdf
Akordi u boji
Promena tonaliteta
AA#B ABH

Parni Valjak

Moja je pjesma lagana

Transkripcija: Stojan Babic


Uvod:
|-------------|------------------|
|-------------|------------------|
|-------2-----|--------2-2-------|
|---2-----2-4-|----2-------4-2-4-|
|-4---4-------|--4---4-----------|
|-------------|------------------|

F#m           Hm
Tuzna je nasa ulica
C#          F#m
Otkada nisi tu,
F#m              Hm
Jer tuznu pjesmu pjevaju
C#          F#m
Oni sto ostaju.

E              A
Iste smo snove sanjali,
C#           F#m
Istom se nadali,
E             A
Drugi su igru vodili
C#          F#m
I snove ukrali.

Nije mi zao sto si otisla,
Znam da si morala.
Jedino boli, malena,
Sto se nisi javila.
Ne bih ti rekao "Ostani",
Ne bih ni probao,
Ne bih ti rekao "Volim te",
Samo - "Cuvaj se".

               Hm      F#m
Moja je pjesma lagana, polagana
  E       A
I tiho se ispija,
       Hm
Sasvim lagana
      F#m
I bez pitanja,
F#m - Fdim - F#m
Sto si otisla.


  F#m          Fdim        F#m
|-----------5-----------4----|
|--------7-----------3-------|
|-----6-----------4----------|
|--4-----------3-----------4-|
|--------------------------4-|
|--------------------------2-|


Kad krenes, srusi mostove,
Izbrisi tragove,
Meni pjesma ostaje
Da me smiruje.

Iste smo snove sanjali,
Istom se nadali,
Ja nisam smogao hrabrosti -
Da se odlucim.

Moja je pjesma lagana, polagana...

<< Povratak